ISO-10303-21;
HEADER;
/* Generated by software containing ST-Developer
 * from STEP Tools, Inc. (www.steptools.com) 
 */

FILE_DESCRIPTION(
/* description */ ('Zylinderrohr'),
/* implementation_level */ '2;1');

FILE_NAME(
/* name */ 
'C:\\Users\\DLamberti\\Desktop\\14 28+ 20 40\\Gasfeder Stahl 14-28-300.
stp',
/* time_stamp */ '2016-03-03T11:06:11+01:00',
/* author */ ('DLamberti'),
/* organization */ (''),
/* preprocessor_version */ 'ST-DEVELOPER v16.1',
/* originating_system */ 'Autodesk Inventor 2016',
/* authorisation */ '');

FILE_SCHEMA (('CONFIG_CONTROL_DESIGN'));
ENDSEC;

DATA;
#10=MECHANICAL_DESIGN_GEOMETRIC_PRESENTATION_REPRESENTATION('',(#210,#231,
#230,#229,#228,#227,#226,#225,#224,#223,#222,#221,#220,#219,#218,#217,#216,
#215,#214,#213,#212,#211,#209),#461);
#11=ITEM_DEFINED_TRANSFORMATION($,$,#255,#296);
#12=ITEM_DEFINED_TRANSFORMATION($,$,#281,#297);
#13=ITEM_DEFINED_TRANSFORMATION($,$,#287,#298);
#14=ITEM_DEFINED_TRANSFORMATION($,$,#287,#299);
#15=(
REPRESENTATION_RELATIONSHIP($,$,#480,#483)
REPRESENTATION_RELATIONSHIP_WITH_TRANSFORMATION(#11)
SHAPE_REPRESENTATION_RELATIONSHIP()
);
#16=(
REPRESENTATION_RELATIONSHIP($,$,#481,#483)
REPRESENTATION_RELATIONSHIP_WITH_TRANSFORMATION(#12)
SHAPE_REPRESENTATION_RELATIONSHIP()
);
#17=(
REPRESENTATION_RELATIONSHIP($,$,#482,#483)
REPRESENTATION_RELATIONSHIP_WITH_TRANSFORMATION(#13)
SHAPE_REPRESENTATION_RELATIONSHIP()
);
#18=(
REPRESENTATION_RELATIONSHIP($,$,#482,#483)
REPRESENTATION_RELATIONSHIP_WITH_TRANSFORMATION(#14)
SHAPE_REPRESENTATION_RELATIONSHIP()
);
#19=CONTEXT_DEPENDENT_SHAPE_REPRESENTATION(#15,#476);
#20=CONTEXT_DEPENDENT_SHAPE_REPRESENTATION(#16,#477);
#21=CONTEXT_DEPENDENT_SHAPE_REPRESENTATION(#17,#478);
#22=CONTEXT_DEPENDENT_SHAPE_REPRESENTATION(#18,#479);
#23=NEXT_ASSEMBLY_USAGE_OCCURRENCE('zylinder-08:1','zylinder-08:1',
'zylinder-08:1',#488,#485,'zylinder-08:1');
#24=NEXT_ASSEMBLY_USAGE_OCCURRENCE('KST_D-14:1','KST_D-14:1',
'KST_D-14:1',#488,#486,'KST_D-14:1');
#25=NEXT_ASSEMBLY_USAGE_OCCURRENCE('Gew-05:4','Gew-05:4','Gew-05:4',#488,
#487,'Gew-05:4');
#26=NEXT_ASSEMBLY_USAGE_OCCURRENCE('Gew-05:5','Gew-05:5','Gew-05:5',#488,
#487,'Gew-05:5');
#27=SHAPE_REPRESENTATION_RELATIONSHIP('SRR','None',#480,#30);
#28=SHAPE_REPRESENTATION_RELATIONSHIP('SRR','None',#481,#31);
#29=SHAPE_REPRESENTATION_RELATIONSHIP('SRR','None',#482,#32);
#30=ADVANCED_BREP_SHAPE_REPRESENTATION('',(#33),#457);
#31=ADVANCED_BREP_SHAPE_REPRESENTATION('',(#34),#458);
#32=ADVANCED_BREP_SHAPE_REPRESENTATION('',(#35),#459);
#33=MANIFOLD_SOLID_BREP('Volumenk\X\F6rper1',#252);
#34=MANIFOLD_SOLID_BREP('Volumenk\X\F6rper1',#253);
#35=MANIFOLD_SOLID_BREP('Volumenk\X\F6rper1',#254);
#36=CONICAL_SURFACE('',#270,9.25,45.);
#37=CONICAL_SURFACE('',#275,9.25,44.9999999999989);
#38=CONICAL_SURFACE('',#288,4.5,45.0000000000001);
#39=PLANE('',#261);
#40=PLANE('',#265);
#41=PLANE('',#279);
#42=PLANE('',#280);
#43=PLANE('',#285);
#44=PLANE('',#286);
#45=PLANE('',#293);
#46=PLANE('',#294);
#47=CYLINDRICAL_SURFACE('',#259,14.);
#48=CYLINDRICAL_SURFACE('',#267,10.);
#49=CYLINDRICAL_SURFACE('',#272,8.5);
#50=CYLINDRICAL_SURFACE('',#273,8.5);
#51=CYLINDRICAL_SURFACE('',#277,10.);
#52=CYLINDRICAL_SURFACE('',#282,7.00000000000001);
#53=CYLINDRICAL_SURFACE('',#291,5.);
#54=FACE_BOUND('',#89,.T.);
#55=FACE_BOUND('',#91,.T.);
#56=FACE_BOUND('',#93,.T.);
#57=FACE_BOUND('',#95,.T.);
#58=FACE_BOUND('',#97,.T.);
#59=FACE_BOUND('',#99,.T.);
#60=FACE_BOUND('',#101,.T.);
#61=FACE_BOUND('',#103,.T.);
#62=FACE_BOUND('',#105,.T.);
#63=FACE_BOUND('',#107,.T.);
#64=FACE_BOUND('',#109,.T.);
#65=FACE_BOUND('',#113,.T.);
#66=FACE_BOUND('',#117,.T.);
#67=FACE_BOUND('',#119,.T.);
#68=FACE_OUTER_BOUND('',#88,.T.);
#69=FACE_OUTER_BOUND('',#90,.T.);
#70=FACE_OUTER_BOUND('',#92,.T.);
#71=FACE_OUTER_BOUND('',#94,.T.);
#72=FACE_OUTER_BOUND('',#96,.T.);
#73=FACE_OUTER_BOUND('',#98,.T.);
#74=FACE_OUTER_BOUND('',#100,.T.);
#75=FACE_OUTER_BOUND('',#102,.T.);
#76=FACE_OUTER_BOUND('',#104,.T.);
#77=FACE_OUTER_BOUND('',#106,.T.);
#78=FACE_OUTER_BOUND('',#108,.T.);
#79=FACE_OUTER_BOUND('',#110,.T.);
#80=FACE_OUTER_BOUND('',#111,.T.);
#81=FACE_OUTER_BOUND('',#112,.T.);
#82=FACE_OUTER_BOUND('',#114,.T.);
#83=FACE_OUTER_BOUND('',#115,.T.);
#84=FACE_OUTER_BOUND('',#116,.T.);
#85=FACE_OUTER_BOUND('',#118,.T.);
#86=FACE_OUTER_BOUND('',#120,.T.);
#87=FACE_OUTER_BOUND('',#121,.T.);
#88=EDGE_LOOP('',(#173));
#89=EDGE_LOOP('',(#174));
#90=EDGE_LOOP('',(#175));
#91=EDGE_LOOP('',(#176));
#92=EDGE_LOOP('',(#177));
#93=EDGE_LOOP('',(#178));
#94=EDGE_LOOP('',(#179));
#95=EDGE_LOOP('',(#180));
#96=EDGE_LOOP('',(#181));
#97=EDGE_LOOP('',(#182));
#98=EDGE_LOOP('',(#183));
#99=EDGE_LOOP('',(#184));
#100=EDGE_LOOP('',(#185));
#101=EDGE_LOOP('',(#186));
#102=EDGE_LOOP('',(#187));
#103=EDGE_LOOP('',(#188));
#104=EDGE_LOOP('',(#189));
#105=EDGE_LOOP('',(#190));
#106=EDGE_LOOP('',(#191));
#107=EDGE_LOOP('',(#192));
#108=EDGE_LOOP('',(#193));
#109=EDGE_LOOP('',(#194));
#110=EDGE_LOOP('',(#195));
#111=EDGE_LOOP('',(#196));
#112=EDGE_LOOP('',(#197));
#113=EDGE_LOOP('',(#198));
#114=EDGE_LOOP('',(#199));
#115=EDGE_LOOP('',(#200));
#116=EDGE_LOOP('',(#201));
#117=EDGE_LOOP('',(#202));
#118=EDGE_LOOP('',(#203));
#119=EDGE_LOOP('',(#204));
#120=EDGE_LOOP('',(#205));
#121=EDGE_LOOP('',(#206));
#122=CIRCLE('',#257,8.59999999999998);
#123=CIRCLE('',#258,14.);
#124=CIRCLE('',#260,14.);
#125=CIRCLE('',#262,8.5);
#126=CIRCLE('',#264,8.59999999999998);
#127=CIRCLE('',#266,8.5);
#128=CIRCLE('',#268,10.);
#129=CIRCLE('',#269,10.);
#130=CIRCLE('',#271,8.5);
#131=CIRCLE('',#274,8.5);
#132=CIRCLE('',#276,10.);
#133=CIRCLE('',#278,10.);
#134=CIRCLE('',#283,7.00000000000003);
#135=CIRCLE('',#284,6.99999999999999);
#136=CIRCLE('',#289,5.);
#137=CIRCLE('',#290,4.);
#138=CIRCLE('',#292,5.);
#139=VERTEX_POINT('',#392);
#140=VERTEX_POINT('',#394);
#141=VERTEX_POINT('',#397);
#142=VERTEX_POINT('',#400);
#143=VERTEX_POINT('',#403);
#144=VERTEX_POINT('',#406);
#145=VERTEX_POINT('',#409);
#146=VERTEX_POINT('',#411);
#147=VERTEX_POINT('',#414);
#148=VERTEX_POINT('',#418);
#149=VERTEX_POINT('',#421);
#150=VERTEX_POINT('',#424);
#151=VERTEX_POINT('',#430);
#152=VERTEX_POINT('',#432);
#153=VERTEX_POINT('',#438);
#154=VERTEX_POINT('',#440);
#155=VERTEX_POINT('',#443);
#156=EDGE_CURVE('',#139,#139,#122,.T.);
#157=EDGE_CURVE('',#140,#140,#123,.T.);
#158=EDGE_CURVE('',#141,#141,#124,.T.);
#159=EDGE_CURVE('',#142,#142,#125,.T.);
#160=EDGE_CURVE('',#143,#143,#126,.T.);
#161=EDGE_CURVE('',#144,#144,#127,.T.);
#162=EDGE_CURVE('',#145,#145,#128,.T.);
#163=EDGE_CURVE('',#146,#146,#129,.T.);
#164=EDGE_CURVE('',#147,#147,#130,.T.);
#165=EDGE_CURVE('',#148,#148,#131,.T.);
#166=EDGE_CURVE('',#149,#149,#132,.T.);
#167=EDGE_CURVE('',#150,#150,#133,.T.);
#168=EDGE_CURVE('',#151,#151,#134,.T.);
#169=EDGE_CURVE('',#152,#152,#135,.T.);
#170=EDGE_CURVE('',#153,#153,#136,.T.);
#171=EDGE_CURVE('',#154,#154,#137,.T.);
#172=EDGE_CURVE('',#155,#155,#138,.T.);
#173=ORIENTED_EDGE('',*,*,#156,.T.);
#174=ORIENTED_EDGE('',*,*,#157,.T.);
#175=ORIENTED_EDGE('',*,*,#158,.F.);
#176=ORIENTED_EDGE('',*,*,#157,.F.);
#177=ORIENTED_EDGE('',*,*,#156,.F.);
#178=ORIENTED_EDGE('',*,*,#159,.T.);
#179=ORIENTED_EDGE('',*,*,#158,.T.);
#180=ORIENTED_EDGE('',*,*,#160,.T.);
#181=ORIENTED_EDGE('',*,*,#160,.F.);
#182=ORIENTED_EDGE('',*,*,#161,.F.);
#183=ORIENTED_EDGE('',*,*,#162,.F.);
#184=ORIENTED_EDGE('',*,*,#163,.T.);
#185=ORIENTED_EDGE('',*,*,#164,.F.);
#186=ORIENTED_EDGE('',*,*,#162,.T.);
#187=ORIENTED_EDGE('',*,*,#159,.F.);
#188=ORIENTED_EDGE('',*,*,#164,.T.);
#189=ORIENTED_EDGE('',*,*,#165,.F.);
#190=ORIENTED_EDGE('',*,*,#161,.T.);
#191=ORIENTED_EDGE('',*,*,#166,.F.);
#192=ORIENTED_EDGE('',*,*,#165,.T.);
#193=ORIENTED_EDGE('',*,*,#167,.F.);
#194=ORIENTED_EDGE('',*,*,#166,.T.);
#195=ORIENTED_EDGE('',*,*,#167,.T.);
#196=ORIENTED_EDGE('',*,*,#163,.F.);
#197=ORIENTED_EDGE('',*,*,#168,.F.);
#198=ORIENTED_EDGE('',*,*,#169,.T.);
#199=ORIENTED_EDGE('',*,*,#168,.T.);
#200=ORIENTED_EDGE('',*,*,#169,.F.);
#201=ORIENTED_EDGE('',*,*,#170,.T.);
#202=ORIENTED_EDGE('',*,*,#171,.T.);
#203=ORIENTED_EDGE('',*,*,#172,.T.);
#204=ORIENTED_EDGE('',*,*,#170,.F.);
#205=ORIENTED_EDGE('',*,*,#171,.F.);
#206=ORIENTED_EDGE('',*,*,#172,.F.);
#207=TOROIDAL_SURFACE('',#256,8.59999999999998,5.4);
#208=TOROIDAL_SURFACE('',#263,8.59999999999998,5.4);
#209=STYLED_ITEM('',(#507),#232);
#210=STYLED_ITEM('',(#507),#233);
#211=STYLED_ITEM('',(#507),#234);
#212=STYLED_ITEM('',(#507),#235);
#213=STYLED_ITEM('',(#507),#236);
#214=STYLED_ITEM('',(#507),#237);
#215=STYLED_ITEM('',(#507),#238);
#216=STYLED_ITEM('',(#507),#239);
#217=STYLED_ITEM('',(#507),#240);
#218=STYLED_ITEM('',(#507),#241);
#219=STYLED_ITEM('',(#507),#242);
#220=STYLED_ITEM('',(#507),#243);
#221=STYLED_ITEM('',(#507),#244);
#222=STYLED_ITEM('',(#506),#33);
#223=STYLED_ITEM('',(#508),#245);
#224=STYLED_ITEM('',(#508),#246);
#225=STYLED_ITEM('',(#508),#247);
#226=STYLED_ITEM('',(#506),#34);
#227=STYLED_ITEM('',(#506),#248);
#228=STYLED_ITEM('',(#506),#249);
#229=STYLED_ITEM('',(#506),#250);
#230=STYLED_ITEM('',(#506),#251);
#231=STYLED_ITEM('',(#506),#35);
#232=ADVANCED_FACE('',(#68,#54),#207,.T.);
#233=ADVANCED_FACE('',(#69,#55),#47,.T.);
#234=ADVANCED_FACE('',(#70,#56),#39,.T.);
#235=ADVANCED_FACE('',(#71,#57),#208,.T.);
#236=ADVANCED_FACE('',(#72,#58),#40,.T.);
#237=ADVANCED_FACE('',(#73,#59),#48,.T.);
#238=ADVANCED_FACE('',(#74,#60),#36,.T.);
#239=ADVANCED_FACE('',(#75,#61),#49,.T.);
#240=ADVANCED_FACE('',(#76,#62),#50,.T.);
#241=ADVANCED_FACE('',(#77,#63),#37,.T.);
#242=ADVANCED_FACE('',(#78,#64),#51,.T.);
#243=ADVANCED_FACE('',(#79),#41,.T.);
#244=ADVANCED_FACE('',(#80),#42,.T.);
#245=ADVANCED_FACE('',(#81,#65),#52,.T.);
#246=ADVANCED_FACE('',(#82),#43,.T.);
#247=ADVANCED_FACE('',(#83),#44,.T.);
#248=ADVANCED_FACE('',(#84,#66),#38,.T.);
#249=ADVANCED_FACE('',(#85,#67),#53,.T.);
#250=ADVANCED_FACE('',(#86),#45,.T.);
#251=ADVANCED_FACE('',(#87),#46,.T.);
#252=CLOSED_SHELL('',(#232,#233,#234,#235,#236,#237,#238,#239,#240,#241,
#242,#243,#244));
#253=CLOSED_SHELL('',(#245,#246,#247));
#254=CLOSED_SHELL('',(#248,#249,#250,#251));
#255=AXIS2_PLACEMENT_3D('placement',#390,#300,#301);
#256=AXIS2_PLACEMENT_3D('',#391,#302,#303);
#257=AXIS2_PLACEMENT_3D('',#393,#304,#305);
#258=AXIS2_PLACEMENT_3D('',#395,#306,#307);
#259=AXIS2_PLACEMENT_3D('',#396,#308,#309);
#260=AXIS2_PLACEMENT_3D('',#398,#310,#311);
#261=AXIS2_PLACEMENT_3D('',#399,#312,#313);
#262=AXIS2_PLACEMENT_3D('',#401,#314,#315);
#263=AXIS2_PLACEMENT_3D('',#402,#316,#317);
#264=AXIS2_PLACEMENT_3D('',#404,#318,#319);
#265=AXIS2_PLACEMENT_3D('',#405,#320,#321);
#266=AXIS2_PLACEMENT_3D('',#407,#322,#323);
#267=AXIS2_PLACEMENT_3D('',#408,#324,#325);
#268=AXIS2_PLACEMENT_3D('',#410,#326,#327);
#269=AXIS2_PLACEMENT_3D('',#412,#328,#329);
#270=AXIS2_PLACEMENT_3D('',#413,#330,#331);
#271=AXIS2_PLACEMENT_3D('',#415,#332,#333);
#272=AXIS2_PLACEMENT_3D('',#416,#334,#335);
#273=AXIS2_PLACEMENT_3D('',#417,#336,#337);
#274=AXIS2_PLACEMENT_3D('',#419,#338,#339);
#275=AXIS2_PLACEMENT_3D('',#420,#340,#341);
#276=AXIS2_PLACEMENT_3D('',#422,#342,#343);
#277=AXIS2_PLACEMENT_3D('',#423,#344,#345);
#278=AXIS2_PLACEMENT_3D('',#425,#346,#347);
#279=AXIS2_PLACEMENT_3D('',#426,#348,#349);
#280=AXIS2_PLACEMENT_3D('',#427,#350,#351);
#281=AXIS2_PLACEMENT_3D('placement',#428,#352,#353);
#282=AXIS2_PLACEMENT_3D('',#429,#354,#355);
#283=AXIS2_PLACEMENT_3D('',#431,#356,#357);
#284=AXIS2_PLACEMENT_3D('',#433,#358,#359);
#285=AXIS2_PLACEMENT_3D('',#434,#360,#361);
#286=AXIS2_PLACEMENT_3D('',#435,#362,#363);
#287=AXIS2_PLACEMENT_3D('placement',#436,#364,#365);
#288=AXIS2_PLACEMENT_3D('',#437,#366,#367);
#289=AXIS2_PLACEMENT_3D('',#439,#368,#369);
#290=AXIS2_PLACEMENT_3D('',#441,#370,#371);
#291=AXIS2_PLACEMENT_3D('',#442,#372,#373);
#292=AXIS2_PLACEMENT_3D('',#444,#374,#375);
#293=AXIS2_PLACEMENT_3D('',#445,#376,#377);
#294=AXIS2_PLACEMENT_3D('',#446,#378,#379);
#295=AXIS2_PLACEMENT_3D('placement',#447,#380,#381);
#296=AXIS2_PLACEMENT_3D('',#448,#382,#383);
#297=AXIS2_PLACEMENT_3D('',#449,#384,#385);
#298=AXIS2_PLACEMENT_3D('',#450,#386,#387);
#299=AXIS2_PLACEMENT_3D('',#451,#388,#389);
#300=DIRECTION('axis',(0.,0.,1.));
#301=DIRECTION('refdir',(1.,0.,0.));
#302=DIRECTION('center_axis',(1.,1.82233577274331E-16,0.));
#303=DIRECTION('ref_axis',(0.,0.,-1.));
#304=DIRECTION('center_axis',(1.,1.82233577274331E-16,0.));
#305=DIRECTION('ref_axis',(1.82233577274331E-16,-1.,1.22464679914735E-16));
#306=DIRECTION('center_axis',(-1.,-1.82233577274331E-16,0.));
#307=DIRECTION('ref_axis',(1.58603289232165E-16,-1.,1.22464679914735E-16));
#308=DIRECTION('center_axis',(1.,1.82233577274331E-16,0.));
#309=DIRECTION('ref_axis',(0.,1.,0.));
#310=DIRECTION('center_axis',(1.,1.82233577274331E-16,0.));
#311=DIRECTION('ref_axis',(1.58603289232166E-16,-1.,1.22464679914735E-16));
#312=DIRECTION('center_axis',(-1.,-1.82233577274331E-16,0.));
#313=DIRECTION('ref_axis',(0.,0.,1.));
#314=DIRECTION('center_axis',(1.,1.82233577274331E-16,0.));
#315=DIRECTION('ref_axis',(0.,1.,0.));
#316=DIRECTION('center_axis',(1.,1.82233577274331E-16,0.));
#317=DIRECTION('ref_axis',(0.,0.,-1.));
#318=DIRECTION('center_axis',(-1.,-1.82233577274331E-16,0.));
#319=DIRECTION('ref_axis',(1.82233577274331E-16,-1.,1.22464679914735E-16));
#320=DIRECTION('center_axis',(1.,1.82233577274331E-16,0.));
#321=DIRECTION('ref_axis',(0.,0.,-1.));
#322=DIRECTION('center_axis',(1.,1.82233577274331E-16,0.));
#323=DIRECTION('ref_axis',(0.,1.,0.));
#324=DIRECTION('center_axis',(1.,1.82233577274331E-16,0.));
#325=DIRECTION('ref_axis',(0.,1.,0.));
#326=DIRECTION('center_axis',(1.,1.82233577274331E-16,0.));
#327=DIRECTION('ref_axis',(0.,1.,0.));
#328=DIRECTION('center_axis',(1.,1.82233577274331E-16,0.));
#329=DIRECTION('ref_axis',(0.,1.,0.));
#330=DIRECTION('center_axis',(-1.,-1.82233577274331E-16,0.));
#331=DIRECTION('ref_axis',(0.,1.,0.));
#332=DIRECTION('center_axis',(1.,1.82233577274331E-16,0.));
#333=DIRECTION('ref_axis',(0.,1.,0.));
#334=DIRECTION('center_axis',(1.,1.82233577274331E-16,0.));
#335=DIRECTION('ref_axis',(0.,1.,0.));
#336=DIRECTION('center_axis',(1.,1.82233577274331E-16,0.));
#337=DIRECTION('ref_axis',(0.,1.,0.));
#338=DIRECTION('center_axis',(1.,1.82233577274331E-16,0.));
#339=DIRECTION('ref_axis',(0.,1.,0.));
#340=DIRECTION('center_axis',(1.,1.82233577274331E-16,0.));
#341=DIRECTION('ref_axis',(0.,1.,0.));
#342=DIRECTION('center_axis',(1.,1.82233577274331E-16,0.));
#343=DIRECTION('ref_axis',(0.,1.,0.));
#344=DIRECTION('center_axis',(1.,1.82233577274331E-16,0.));
#345=DIRECTION('ref_axis',(0.,1.,0.));
#346=DIRECTION('center_axis',(1.,1.82233577274331E-16,0.));
#347=DIRECTION('ref_axis',(0.,1.,0.));
#348=DIRECTION('center_axis',(1.,1.82233577274331E-16,0.));
#349=DIRECTION('ref_axis',(0.,0.,-1.));
#350=DIRECTION('center_axis',(-1.,-1.82233577274331E-16,0.));
#351=DIRECTION('ref_axis',(0.,0.,1.));
#352=DIRECTION('axis',(0.,0.,1.));
#353=DIRECTION('refdir',(1.,0.,0.));
#354=DIRECTION('center_axis',(1.,1.81336427355442E-16,0.));
#355=DIRECTION('ref_axis',(0.,1.,0.));
#356=DIRECTION('center_axis',(1.,1.81336427355442E-16,0.));
#357=DIRECTION('ref_axis',(0.,1.,0.));
#358=DIRECTION('center_axis',(1.,1.81336427355442E-16,0.));
#359=DIRECTION('ref_axis',(0.,1.,0.));
#360=DIRECTION('center_axis',(1.,1.81336427355442E-16,0.));
#361=DIRECTION('ref_axis',(0.,0.,-1.));
#362=DIRECTION('center_axis',(-1.,-1.81336427355442E-16,0.));
#363=DIRECTION('ref_axis',(0.,0.,1.));
#364=DIRECTION('axis',(0.,0.,1.));
#365=DIRECTION('refdir',(1.,0.,0.));
#366=DIRECTION('center_axis',(-1.,-2.22333686305437E-16,0.));
#367=DIRECTION('ref_axis',(2.22333686305437E-16,-1.,0.));
#368=DIRECTION('center_axis',(1.,2.22333686305437E-16,0.));
#369=DIRECTION('ref_axis',(2.22333686305437E-16,-1.,0.));
#370=DIRECTION('center_axis',(-1.,-2.22333686305437E-16,0.));
#371=DIRECTION('ref_axis',(2.22333686305437E-16,-1.,0.));
#372=DIRECTION('center_axis',(1.,2.22333686305437E-16,0.));
#373=DIRECTION('ref_axis',(-2.22333686305437E-16,1.,0.));
#374=DIRECTION('center_axis',(1.,2.22333686305437E-16,0.));
#375=DIRECTION('ref_axis',(-2.22333686305437E-16,1.,0.));
#376=DIRECTION('center_axis',(1.,2.22333686305437E-16,0.));
#377=DIRECTION('ref_axis',(0.,0.,-1.));
#378=DIRECTION('center_axis',(-1.,-2.22333686305437E-16,0.));
#379=DIRECTION('ref_axis',(0.,0.,1.));
#380=DIRECTION('axis',(0.,0.,1.));
#381=DIRECTION('refdir',(1.,0.,0.));
#382=DIRECTION('',(0.,0.,1.));
#383=DIRECTION('',(1.,0.,0.));
#384=DIRECTION('',(0.,0.,1.));
#385=DIRECTION('',(1.,0.,0.));
#386=DIRECTION('',(3.98740108152177E-15,-0.140733957990282,0.990047449907523));
#387=DIRECTION('',(-1.,8.42208247586738E-16,4.14720363356346E-15));
#388=DIRECTION('',(-1.0423546735574E-16,-8.10462807976364E-15,1.));
#389=DIRECTION('',(1.,-5.55111512312531E-17,1.04235467355739E-16));
#390=CARTESIAN_POINT('',(0.,0.,0.));
#391=CARTESIAN_POINT('Origin',(8.00000000000001,1.45786861819465E-15,0.));
#392=CARTESIAN_POINT('',(2.6,8.59999999999998,2.46519032881566E-31));
#393=CARTESIAN_POINT('Origin',(2.6,4.73807300913262E-16,0.));
#394=CARTESIAN_POINT('',(8.00000000000001,14.,-3.42901103761258E-15));
#395=CARTESIAN_POINT('Origin',(8.00000000000001,1.45786861819465E-15,0.));
#396=CARTESIAN_POINT('Origin',(198.,3.60822483003176E-14,0.));
#397=CARTESIAN_POINT('',(388.,14.0000000000001,0.));
#398=CARTESIAN_POINT('Origin',(388.,7.07066279824405E-14,0.));
#399=CARTESIAN_POINT('Origin',(2.6,11.25,0.));
#400=CARTESIAN_POINT('',(2.6,8.5,0.));
#401=CARTESIAN_POINT('Origin',(2.6,4.73807300913262E-16,0.));
#402=CARTESIAN_POINT('Origin',(388.,7.07066279824405E-14,0.));
#403=CARTESIAN_POINT('',(393.4,8.60000000000005,-2.10639249453344E-15));
#404=CARTESIAN_POINT('Origin',(393.4,7.16906892997219E-14,0.));
#405=CARTESIAN_POINT('Origin',(393.4,11.2500000000001,0.));
#406=CARTESIAN_POINT('',(393.4,8.50000000000007,0.));
#407=CARTESIAN_POINT('Origin',(393.4,7.16906892997219E-14,0.));
#408=CARTESIAN_POINT('Origin',(0.500000000000002,9.11167886371659E-17,0.));
#409=CARTESIAN_POINT('',(1.,10.,0.));
#410=CARTESIAN_POINT('Origin',(1.,1.82233577274332E-16,0.));
#411=CARTESIAN_POINT('',(0.,10.,0.));
#412=CARTESIAN_POINT('Origin',(1.82233577274331E-15,3.32090766861997E-31,
0.));
#413=CARTESIAN_POINT('Origin',(1.75,3.1890876023008E-16,0.));
#414=CARTESIAN_POINT('',(2.5,8.5,0.));
#415=CARTESIAN_POINT('Origin',(2.5,4.55583943185828E-16,0.));
#416=CARTESIAN_POINT('Origin',(2.55,4.64695622049545E-16,0.));
#417=CARTESIAN_POINT('Origin',(393.45,7.16998009785856E-14,0.));
#418=CARTESIAN_POINT('',(393.5,8.50000000000007,0.));
#419=CARTESIAN_POINT('Origin',(393.5,7.17089126574493E-14,0.));
#420=CARTESIAN_POINT('Origin',(394.25,7.18455878404051E-14,0.));
#421=CARTESIAN_POINT('',(395.,10.0000000000001,0.));
#422=CARTESIAN_POINT('Origin',(395.,7.19822630233609E-14,0.));
#423=CARTESIAN_POINT('Origin',(395.5,7.2073379811998E-14,0.));
#424=CARTESIAN_POINT('',(396.,10.0000000000001,0.));
#425=CARTESIAN_POINT('Origin',(396.,7.21644966006352E-14,0.));
#426=CARTESIAN_POINT('Origin',(396.,5.00000000000007,0.));
#427=CARTESIAN_POINT('Origin',(0.,5.,0.));
#428=CARTESIAN_POINT('',(0.,0.,0.));
#429=CARTESIAN_POINT('Origin',(150.,2.72004641033163E-14,0.));
#430=CARTESIAN_POINT('',(300.,7.00000000000009,0.));
#431=CARTESIAN_POINT('Origin',(300.,5.44009282066327E-14,0.));
#432=CARTESIAN_POINT('',(-4.93038065764132E-32,6.99999999999999,0.));
#433=CARTESIAN_POINT('Origin',(1.26935499148809E-15,2.30180299202249E-31,
0.));
#434=CARTESIAN_POINT('Origin',(300.,3.50000000000007,0.));
#435=CARTESIAN_POINT('Origin',(-2.46519032882066E-32,3.5,0.));
#436=CARTESIAN_POINT('',(0.,0.,0.));
#437=CARTESIAN_POINT('Origin',(11.5,2.55683739251252E-15,0.));
#438=CARTESIAN_POINT('',(11.,5.,6.12323399573677E-16));
#439=CARTESIAN_POINT('Origin',(11.,2.44567054935981E-15,0.));
#440=CARTESIAN_POINT('',(12.,4.,-4.89858719658941E-16));
#441=CARTESIAN_POINT('Origin',(12.,2.66800423566524E-15,0.));
#442=CARTESIAN_POINT('Origin',(6.,1.33400211783262E-15,0.));
#443=CARTESIAN_POINT('',(0.,5.,0.));
#444=CARTESIAN_POINT('Origin',(2.22044604925031E-15,0.,0.));
#445=CARTESIAN_POINT('Origin',(12.,2.5,0.));
#446=CARTESIAN_POINT('Origin',(0.,2.5,0.));
#447=CARTESIAN_POINT('',(0.,0.,0.));
#448=CARTESIAN_POINT('',(0.,0.,0.));
#449=CARTESIAN_POINT('',(-300.,-5.46700731822994E-14,0.));
#450=CARTESIAN_POINT('',(-300.,-5.46700731822993E-14,1.57772181044202E-28));
#451=CARTESIAN_POINT('',(396.,7.21644966006352E-14,1.57772181044204E-29));
#452=UNCERTAINTY_MEASURE_WITH_UNIT(LENGTH_MEASURE(0.01),#462,
'DISTANCE_ACCURACY_VALUE',
'Maximum model space distance between geometric entities at asserted c
onnectivities');
#453=UNCERTAINTY_MEASURE_WITH_UNIT(LENGTH_MEASURE(0.01),#462,
'DISTANCE_ACCURACY_VALUE',
'Maximum model space distance between geometric entities at asserted c
onnectivities');
#454=UNCERTAINTY_MEASURE_WITH_UNIT(LENGTH_MEASURE(0.01),#462,
'DISTANCE_ACCURACY_VALUE',
'Maximum model space distance between geometric entities at asserted c
onnectivities');
#455=UNCERTAINTY_MEASURE_WITH_UNIT(LENGTH_MEASURE(0.01),#462,
'DISTANCE_ACCURACY_VALUE',
'Maximum model space distance between geometric entities at asserted c
onnectivities');
#456=UNCERTAINTY_MEASURE_WITH_UNIT(LENGTH_MEASURE(1.E-6),#462,
'DISTANCE_ACCURACY_VALUE',
'Maximum model space distance between geometric entities at asserted c
onnectivities');
#457=(
GEOMETRIC_REPRESENTATION_CONTEXT(3)
GLOBAL_UNCERTAINTY_ASSIGNED_CONTEXT((#452))
GLOBAL_UNIT_ASSIGNED_CONTEXT((#462,#465,#463))
REPRESENTATION_CONTEXT('','3D')
);
#458=(
GEOMETRIC_REPRESENTATION_CONTEXT(3)
GLOBAL_UNCERTAINTY_ASSIGNED_CONTEXT((#453))
GLOBAL_UNIT_ASSIGNED_CONTEXT((#462,#465,#463))
REPRESENTATION_CONTEXT('','3D')
);
#459=(
GEOMETRIC_REPRESENTATION_CONTEXT(3)
GLOBAL_UNCERTAINTY_ASSIGNED_CONTEXT((#454))
GLOBAL_UNIT_ASSIGNED_CONTEXT((#462,#465,#463))
REPRESENTATION_CONTEXT('','3D')
);
#460=(
GEOMETRIC_REPRESENTATION_CONTEXT(3)
GLOBAL_UNCERTAINTY_ASSIGNED_CONTEXT((#455))
GLOBAL_UNIT_ASSIGNED_CONTEXT((#462,#465,#463))
REPRESENTATION_CONTEXT('','3D')
);
#461=(
GEOMETRIC_REPRESENTATION_CONTEXT(3)
GLOBAL_UNCERTAINTY_ASSIGNED_CONTEXT((#456))
GLOBAL_UNIT_ASSIGNED_CONTEXT((#462,#465,#463))
REPRESENTATION_CONTEXT('','3D')
);
#462=(
LENGTH_UNIT()
NAMED_UNIT(*)
SI_UNIT(.MILLI.,.METRE.)
);
#463=(
NAMED_UNIT(*)
SI_UNIT($,.STERADIAN.)
SOLID_ANGLE_UNIT()
);
#464=DIMENSIONAL_EXPONENTS(0.,0.,0.,0.,0.,0.,0.);
#465=(
CONVERSION_BASED_UNIT('degree',#467)
NAMED_UNIT(#464)
PLANE_ANGLE_UNIT()
);
#466=(
NAMED_UNIT(*)
PLANE_ANGLE_UNIT()
SI_UNIT($,.RADIAN.)
);
#467=PLANE_ANGLE_MEASURE_WITH_UNIT(PLANE_ANGLE_MEASURE(0.01745329252),#466);
#468=SHAPE_DEFINITION_REPRESENTATION(#472,#480);
#469=SHAPE_DEFINITION_REPRESENTATION(#473,#481);
#470=SHAPE_DEFINITION_REPRESENTATION(#474,#482);
#471=SHAPE_DEFINITION_REPRESENTATION(#475,#483);
#472=PRODUCT_DEFINITION_SHAPE('',$,#485);
#473=PRODUCT_DEFINITION_SHAPE('',$,#486);
#474=PRODUCT_DEFINITION_SHAPE('',$,#487);
#475=PRODUCT_DEFINITION_SHAPE('',$,#488);
#476=PRODUCT_DEFINITION_SHAPE($,$,#23);
#477=PRODUCT_DEFINITION_SHAPE($,$,#24);
#478=PRODUCT_DEFINITION_SHAPE($,$,#25);
#479=PRODUCT_DEFINITION_SHAPE($,$,#26);
#480=SHAPE_REPRESENTATION('',(#255),#457);
#481=SHAPE_REPRESENTATION('',(#281),#458);
#482=SHAPE_REPRESENTATION('',(#287),#459);
#483=SHAPE_REPRESENTATION('',(#295,#296,#297,#298,#299),#460);
#484=DESIGN_CONTEXT('part definition',#498,'design');
#485=PRODUCT_DEFINITION('zylinder-08','zylinder-08',#489,#484);
#486=PRODUCT_DEFINITION('KST_D-14','KST_D-14',#490,#484);
#487=PRODUCT_DEFINITION('Gew-05','Gew-05',#491,#484);
#488=PRODUCT_DEFINITION('G___-S-00032-BM','G___-S-00032-BM',#492,#484);
#489=PRODUCT_DEFINITION_FORMATION('',$,#500);
#490=PRODUCT_DEFINITION_FORMATION('',$,#501);
#491=PRODUCT_DEFINITION_FORMATION('',$,#502);
#492=PRODUCT_DEFINITION_FORMATION('',$,#503);
#493=PRODUCT_RELATED_PRODUCT_CATEGORY('zylinder-08','zylinder-08',(#500));
#494=PRODUCT_RELATED_PRODUCT_CATEGORY('KST_D-14','KST_D-14',(#501));
#495=PRODUCT_RELATED_PRODUCT_CATEGORY('Gew-05','Gew-05',(#502));
#496=PRODUCT_RELATED_PRODUCT_CATEGORY('G___-S-00032-BM',
'G___-S-00032-BM',(#503));
#497=APPLICATION_PROTOCOL_DEFINITION('international standard',
'ap203_configuration_controlled_3d_design_of_mechanical_parts_and_asse
mblies_mim_lf',2004,#498);
#498=APPLICATION_CONTEXT(
'Configuration Controlled 3D Design of Mechanical Parts and Assemblies');
#499=MECHANICAL_CONTEXT('part definition',#498,'mechanical');
#500=PRODUCT('zylinder-08','zylinder-08',$,(#499));
#501=PRODUCT('KST_D-14','KST_D-14',$,(#499));
#502=PRODUCT('Gew-05','Gew-05',$,(#499));
#503=PRODUCT('G___-S-00032-BM','G___-S-00032-BM',$,(#499));
#504=PRESENTATION_STYLE_ASSIGNMENT((#509));
#505=PRESENTATION_STYLE_ASSIGNMENT((#510));
#506=PRESENTATION_STYLE_ASSIGNMENT((#511));
#507=PRESENTATION_STYLE_ASSIGNMENT((#512));
#508=PRESENTATION_STYLE_ASSIGNMENT((#513));
#509=SURFACE_STYLE_USAGE(.BOTH.,#514);
#510=SURFACE_STYLE_USAGE(.BOTH.,#515);
#511=SURFACE_STYLE_USAGE(.BOTH.,#516);
#512=SURFACE_STYLE_USAGE(.BOTH.,#517);
#513=SURFACE_STYLE_USAGE(.BOTH.,#518);
#514=SURFACE_SIDE_STYLE('',(#519));
#515=SURFACE_SIDE_STYLE('',(#520));
#516=SURFACE_SIDE_STYLE('',(#521));
#517=SURFACE_SIDE_STYLE('',(#522));
#518=SURFACE_SIDE_STYLE('',(#523));
#519=SURFACE_STYLE_FILL_AREA(#524);
#520=SURFACE_STYLE_FILL_AREA(#525);
#521=SURFACE_STYLE_FILL_AREA(#526);
#522=SURFACE_STYLE_FILL_AREA(#527);
#523=SURFACE_STYLE_FILL_AREA(#528);
#524=FILL_AREA_STYLE('',(#529));
#525=FILL_AREA_STYLE('',(#530));
#526=FILL_AREA_STYLE('',(#531));
#527=FILL_AREA_STYLE('',(#532));
#528=FILL_AREA_STYLE('',(#533));
#529=FILL_AREA_STYLE_COLOUR('',#534);
#530=FILL_AREA_STYLE_COLOUR('',#535);
#531=FILL_AREA_STYLE_COLOUR('',#536);
#532=FILL_AREA_STYLE_COLOUR('',#537);
#533=FILL_AREA_STYLE_COLOUR('',#538);
#534=COLOUR_RGB('',0.16078431372549,0.16078431372549,0.16078431372549);
#535=COLOUR_RGB('',1.,1.,1.);
#536=COLOUR_RGB('',0.87843137254902,0.874509803921569,0.858823529411765);
#537=COLOUR_RGB('',0.63921568627451,0.63921568627451,0.686274509803922);
#538=COLOUR_RGB('',0.63921568627451,0.63921568627451,0.686274509803922);
ENDSEC;
END-ISO-10303-21;
